  0
SECTION
  2
HEADER
  9
$ACADVER
  1
AC1015
  9
$ACADMAINTVER
 70
     6
  9
$DWGCODEPAGE
  3
ANSI_1254
  9
$INSBASE
 10
0.0
 20
0.0
 30
0.0
  9
$EXTMIN
 10
0.0
 20
0.0
 30
0.0
  9
$EXTMAX
 10
279.4
 20
215.9
 30
0.0
  9
$LIMMIN
 10
0.0
 20
0.0
  9
$LIMMAX
 10
279.4
 20
215.9
  9
$ORTHOMODE
 70
     0
  9
$REGENMODE
 70
     1
  9
$FILLMODE
 70
     1
  9
$QTEXTMODE
 70
     0
  9
$MIRRTEXT
 70
     1
  9
$LTSCALE
 40
1.0
  9
$ATTMODE
 70
     1
  9
$TEXTSIZE
 40
3.5
  9
$TRACEWID
 40
1.0
  9
$TEXTSTYLE
  7
Standard
  9
$CLAYER
  8
0
  9
$CELTYPE
  6
ByLayer
  9
$CECOLOR
 62
   256
  9
$CELTSCALE
 40
1.0
  9
$DISPSILH
 70
     0
  9
$DIMSCALE
 40
1.0
  9
$DIMASZ
 40
3.5
  9
$DIMEXO
 40
1.0
  9
$DIMDLI
 40
3.75
  9
$DIMRND
 40
0.0
  9
$DIMDLE
 40
0.0
  9
$DIMEXE
 40
1.0
  9
$DIMTP
 40
0.0
  9
$DIMTM
 40
0.0
  9
$DIMTXT
 40
3.5
  9
$DIMCEN
 40
2.5
  9
$DIMTSZ
 40
0.0
  9
$DIMTOL
 70
     0
  9
$DIMLIM
 70
     0
  9
$DIMTIH
 70
     1
  9
$DIMTOH
 70
     1
  9
$DIMSE1
 70
     0
  9
$DIMSE2
 70
     0
  9
$DIMTAD
 70
     1
  9
$DIMZIN
 70
     0
  9
$DIMBLK
  1

  9
$DIMASO
 70
     1
  9
$DIMSHO
 70
     1
  9
$DIMPOST
  1

  9
$DIMAPOST
  1

  9
$DIMALT
 70
     0
  9
$DIMALTD
 70
     3
  9
$DIMALTF
 40
0.0393700787
  9
$DIMLFAC
 40
1.0
  9
$DIMTOFL
 70
     1
  9
$DIMTVP
 40
0.0
  9
$DIMTIX
 70
     0
  9
$DIMSOXD
 70
     0
  9
$DIMSAH
 70
     0
  9
$DIMBLK1
  1

  9
$DIMBLK2
  1

  9
$DIMSTYLE
  2
ISO-25
  9
$DIMCLRD
 70
     0
  9
$DIMCLRE
 70
     0
  9
$DIMCLRT
 70
     0
  9
$DIMTFAC
 40
1.0
  9
$DIMGAP
 40
1.524
  9
$DIMJUST
 70
     0
  9
$DIMSD1
 70
     0
  9
$DIMSD2
 70
     0
  9
$DIMTOLJ
 70
     0
  9
$DIMTZIN
 70
     0
  9
$DIMALTZ
 70
     0
  9
$DIMALTTZ
 70
     0
  9
$DIMUPT
 70
     0
  9
$DIMDEC
 70
     2
  9
$DIMTDEC
 70
     2
  9
$DIMALTU
 70
     2
  9
$DIMALTTD
 70
     3
  9
$DIMTXSTY
  7
Standard
  9
$DIMAUNIT
 70
     0
  9
$DIMADEC
 70
     2
  9
$DIMALTRND
 40
0.0
  9
$DIMAZIN
 70
     0
  9
$DIMDSEP
 70
    44
  9
$DIMATFIT
 70
     3
  9
$DIMFRAC
 70
     0
  9
$DIMLDRBLK
  1

  9
$DIMLUNIT
 70
     2
  9
$DIMLWD
 70
    -2
  9
$DIMLWE
 70
    -2
  9
$DIMTMOVE
 70
     0
  9
$LUNITS
 70
     2
  9
$LUPREC
 70
     2
  9
$SKETCHINC
 40
1.0
  9
$FILLETRAD
 40
10.0
  9
$AUNITS
 70
     0
  9
$AUPREC
 70
     2
  9
$MENU
  1
.
  9
$ELEVATION
 40
0.0
  9
$PELEVATION
 40
0.0
  9
$THICKNESS
 40
0.0
  9
$LIMCHECK
 70
     0
  9
$CHAMFERA
 40
0.0
  9
$CHAMFERB
 40
0.0
  9
$CHAMFERC
 40
0.0
  9
$CHAMFERD
 40
0.0
  9
$SKPOLY
 70
     0
  9
$TDCREATE
 40
2458985.699215602
  9
$TDUCREATE
 40
2458985.574215602
  9
$TDUPDATE
 40
2458985.69921588
  9
$TDUUPDATE
 40
2458985.57421588
  9
$TDINDWG
 40
0.0000000116
  9
$TDUSRTIMER
 40
0.0000000116
  9
$USRTIMER
 70
     1
  9
$ANGBASE
 50
0.0
  9
$ANGDIR
 70
     0
  9
$PDMODE
 70
     0
  9
$PDSIZE
 40
-1.0
  9
$PLINEWID
 40
0.0
  9
$SPLFRAME
 70
     0
  9
$SPLINETYPE
 70
     6
  9
$SPLINESEGS
 70
     8
  9
$HANDSEED
  5
ED
  9
$SURFTAB1
 70
     6
  9
$SURFTAB2
 70
     6
  9
$SURFTYPE
 70
     6
  9
$SURFU
 70
     6
  9
$SURFV
 70
     6
  9
$UCSBASE
  2

  9
$UCSNAME
  2

  9
$UCSORG
 10
0.0
 20
0.0
 30
0.0
  9
$UCSXDIR
 10
1.0
 20
0.0
 30
0.0
  9
$UCSYDIR
 10
0.0
 20
1.0
 30
0.0
  9
$UCSORTHOREF
  2

  9
$UCSORTHOVIEW
 70
     0
  9
$UCSORGTOP
 10
0.0
 20
0.0
 30
0.0
  9
$UCSORGBOTTOM
 10
0.0
 20
0.0
 30
0.0
  9
$UCSORGLEFT
 10
0.0
 20
0.0
 30
0.0
  9
$UCSORGRIGHT
 10
0.0
 20
0.0
 30
0.0
  9
$UCSORGFRONT
 10
0.0
 20
0.0
 30
0.0
  9
$UCSORGBACK
 10
0.0
 20
0.0
 30
0.0
  9
$PUCSBASE
  2

  9
$PUCSNAME
  2

  9
$PUCSORG
 10
0.0
 20
0.0
 30
0.0
  9
$PUCSXDIR
 10
1.0
 20
0.0
 30
0.0
  9
$PUCSYDIR
 10
0.0
 20
1.0
 30
0.0
  9
$PUCSORTHOREF
  2

  9
$PUCSORTHOVIEW
 70
     0
  9
$PUCSORGTOP
 10
0.0
 20
0.0
 30
0.0
  9
$PUCSORGBOTTOM
 10
0.0
 20
0.0
 30
0.0
  9
$PUCSORGLEFT
 10
0.0
 20
0.0
 30
0.0
  9
$PUCSORGRIGHT
 10
0.0
 20
0.0
 30
0.0
  9
$PUCSORGFRONT
 10
0.0
 20
0.0
 30
0.0
  9
$PUCSORGBACK
 10
0.0
 20
0.0
 30
0.0
  9
$USERI1
 70
     0
  9
$USERI2
 70
     0
  9
$USERI3
 70
     0
  9
$USERI4
 70
     0
  9
$USERI5
 70
     0
  9
$USERR1
 40
0.0
  9
$USERR2
 40
0.0
  9
$USERR3
 40
0.0
  9
$USERR4
 40
0.0
  9
$USERR5
 40
0.0
  9
$WORLDVIEW
 70
     1
  9
$SHADEDGE
 70
     3
  9
$SHADEDIF
 70
    70
  9
$TILEMODE
 70
     1
  9
$MAXACTVP
 70
    64
  9
$PINSBASE
 10
0.0
 20
0.0
 30
0.0
  9
$PLIMCHECK
 70
     0
  9
$PEXTMIN
 10
1.0000000000E+20
 20
1.0000000000E+20
 30
1.0000000000E+20
  9
$PEXTMAX
 10
-1.0000000000E+20
 20
-1.0000000000E+20
 30
-1.0000000000E+20
  9
$PLIMMIN
 10
0.0
 20
0.0
  9
$PLIMMAX
 10
420.0
 20
297.0
  9
$UNITMODE
 70
     0
  9
$VISRETAIN
 70
     1
  9
$PLINEGEN
 70
     0
  9
$PSLTSCALE
 70
     1
  9
$TREEDEPTH
 70
  3020
  9
$CMLSTYLE
  2
Standard
  9
$CMLJUST
 70
     0
  9
$CMLSCALE
 40
20.0
  9
$PROXYGRAPHICS
 70
     1
  9
$MEASUREMENT
 70
     1
  9
$CELWEIGHT
370
    -1
  9
$ENDCAPS
280
     0
  9
$JOINSTYLE
280
     0
  9
$LWDISPLAY
290
     1
  9
$INSUNITS
 70
     4
  9
$HYPERLINKBASE
  1

  9
$STYLESHEET
  1

  9
$XEDIT
290
     1
  9
$CEPSNTYPE
380
     0
  9
$PSTYLEMODE
290
     1
  9
$FINGERPRINTGUID
  2
{2162ca7c-7721-4868-854f-caa3cbd719f6}
  9
$VERSIONGUID
  2
{FAEB1C32-E019-11D5-929B-00C0DF256EC4}
  9
$EXTNAMES
290
     1
  9
$PSVPSCALE
 40
0.0
  9
$OLESTARTUP
290
     0
  0
ENDSEC
  0
SECTION
  2
CLASSES
  0
CLASS
  1
ACDBDICTIONARYWDFLT
  2
AcDbDictionaryWithDefault
  3
ObjectDBX Classes
 90
        0
280
     0
281
     0
  0
CLASS
  1
VISUALSTYLE
  2
AcDbVisualStyle
  3
ObjectDBX Classes
 90
     4095
280
     0
281
     0
  0
CLASS
  1
MATERIAL
  2
AcDbMaterial
  3
ObjectDBX Classes
 90
     1153
280
     0
281
     0
  0
CLASS
  1
SCALE
  2
AcDbScale
  3
ObjectDBX Classes
 90
     1153
280
     0
281
     0
  0
CLASS
  1
TABLESTYLE
  2
AcDbTableStyle
  3
ObjectDBX Classes
 90
     4095
280
     0
281
     0
  0
CLASS
  1
MLEADERSTYLE
  2
AcDbMLeaderStyle
  3
ACDB_MLEADERSTYLE_CLASS
 90
     4095
280
     0
281
     0
  0
CLASS
  1
SUN
  2
AcDbSun
  3
SCENEOE
 90
     1153
280
     0
281
     0
  0
CLASS
  1
ACDBPLACEHOLDER
  2
AcDbPlaceHolder
  3
ObjectDBX Classes
 90
        0
280
     0
281
     0
  0
CLASS
  1
LAYOUT
  2
AcDbLayout
  3
ObjectDBX Classes
 90
        0
280
     0
281
     0
  0
ENDSEC
  0
SECTION
  2
TABLES
  0
TABLE
  2
VPORT
  5
8
330
0
100
AcDbSymbolTable
 70
     1
  0
VPORT
  5
29
330
8
100
AcDbSymbolTableRecord
100
AcDbViewportTableRecord
  2
*Active
 70
     0
 10
0.0
 20
0.0
 11
1.0
 21
1.0
 12
139.7
 22
107.95
 13
0.0
 23
0.0
 14
10.0
 24
10.0
 15
10.0
 25
10.0
 16
0.0
 26
0.0
 36
1.0
 17
0.0
 27
0.0
 37
0.0
 40
215.9
 41
1.2941176471
 42
50.0
 43
0.0
 44
0.0
 50
0.0
 51
0.0
 71
     0
 72
  2000
 73
     1
 74
     3
 75
     0
 76
     0
 77
     0
 78
     0
281
     0
 65
     1
110
0.0
120
0.0
130
0.0
111
1.0
121
0.0
131
0.0
112
0.0
122
1.0
132
0.0
 79
     0
146
0.0
  0
ENDTAB
  0
TABLE
  2
LTYPE
  5
5
330
0
100
AcDbSymbolTable
 70
     6
  0
LTYPE
  5
14
330
5
100
AcDbSymbolTableRecord
100
AcDbLinetypeTableRecord
  2
ByBlock
 70
     0
  3

 72
    65
 73
     0
 40
0.0
  0
LTYPE
  5
15
330
5
100
AcDbSymbolTableRecord
100
AcDbLinetypeTableRecord
  2
ByLayer
 70
     0
  3

 72
    65
 73
     0
 40
0.0
  0
LTYPE
  5
16
330
5
100
AcDbSymbolTableRecord
100
AcDbLinetypeTableRecord
  2
Continuous
 70
     0
  3
Solid line
 72
    65
 73
     0
 40
0.0
  0
LTYPE
  5
6E
330
5
100
AcDbSymbolTableRecord
100
AcDbLinetypeTableRecord
  2
HIDDEN
 70
     0
  3
Hidden __ __ __ __ __ __ __ __ __ __ __ __ __ __
 72
    65
 73
     2
 40
1.905
 49
1.27
 74
     0
 49
-0.635
 74
     0
  0
LTYPE
  5
6F
330
5
100
AcDbSymbolTableRecord
100
AcDbLinetypeTableRecord
  2
PHANTOM
 70
     0
  3
Phantom ______  __  __  ______  __  __  ______
 72
    65
 73
     6
 40
12.7
 49
6.35
 74
     0
 49
-1.27
 74
     0
 49
1.27
 74
     0
 49
-1.27
 74
     0
 49
1.27
 74
     0
 49
-1.27
 74
     0
  0
LTYPE
  5
70
330
5
100
AcDbSymbolTableRecord
100
AcDbLinetypeTableRecord
  2
CENTER
 70
     0
  3
Center ____ _ ____ _ ____ _ ____ _ ____ _ ____
 72
    65
 73
     4
 40
10.16
 49
6.35
 74
     0
 49
-1.27
 74
     0
 49
1.27
 74
     0
 49
-1.27
 74
     0
  0
LTYPE
  5
71
330
5
100
AcDbSymbolTableRecord
100
AcDbLinetypeTableRecord
  2
CENTERX2
 70
     0
  3
Center (2x) ________  __  ________  __  _____
 72
    65
 73
     4
 40
20.32
 49
12.7
 74
     0
 49
-2.54
 74
     0
 49
2.54
 74
     0
 49
-2.54
 74
     0
  0
LTYPE
  5
72
330
5
100
AcDbSymbolTableRecord
100
AcDbLinetypeTableRecord
  2
DOT2
 70
     0
  3
Dot (.5x) ........................................
 72
    65
 73
     2
 40
0.635
 49
0.0
 74
     0
 49
-0.635
 74
     0
  0
ENDTAB
  0
TABLE
  2
LAYER
  5
2
330
0
100
AcDbSymbolTable
 70
    17
  0
LAYER
  5
10
330
2
100
AcDbSymbolTableRecord
100
AcDbLayerTableRecord
  2
0
 70
     0
 62
     7
  6
Continuous
370
    -3
390
F
  0
LAYER
  5
73
330
2
100
AcDbSymbolTableRecord
100
AcDbLayerTableRecord
  2
FORMAT
 70
     0
 62
     7
  6
Continuous
370
    -3
390
F
  0
LAYER
  5
74
330
2
100
AcDbSymbolTableRecord
100
AcDbLayerTableRecord
  2
YARDIMCI_GEOMETRI
 70
     0
 62
    -6
  6
Continuous
290
     0
370
    -3
390
F
  0
LAYER
  5
75
330
2
100
AcDbSymbolTableRecord
100
AcDbLayerTableRecord
  2
SAYFA_CERCEVESI
 70
     0
 62
     7
  6
Continuous
370
    25
390
F
  0
LAYER
  5
76
330
2
100
AcDbSymbolTableRecord
100
AcDbLayerTableRecord
  2
ANTET
 70
     0
 62
     7
  6
Continuous
370
    -3
390
F
  0
LAYER
  5
77
330
2
100
AcDbSymbolTableRecord
100
AcDbLayerTableRecord
  2
OLCU
 70
     0
 62
   150
  6
Continuous
370
    -3
390
F
  0
LAYER
  5
78
330
2
100
AcDbSymbolTableRecord
100
AcDbLayerTableRecord
  2
METIN
 70
     0
 62
    96
  6
Continuous
370
    -3
390
F
  0
LAYER
  5
79
330
2
100
AcDbSymbolTableRecord
100
AcDbLayerTableRecord
  2
BALON
 70
     0
 62
     5
  6
Continuous
370
    -3
390
F
  0
LAYER
  5
7A
330
2
100
AcDbSymbolTableRecord
100
AcDbLayerTableRecord
  2
VURGU
 70
     0
 62
     7
  6
Continuous
370
    -3
390
F
  0
LAYER
  5
7B
330
2
100
AcDbSymbolTableRecord
100
AcDbLayerTableRecord
  2
SILIK
 70
     0
 62
     7
  6
Continuous
370
    -3
390
F
  0
LAYER
  5
7C
330
2
100
AcDbSymbolTableRecord
100
AcDbLayerTableRecord
  2
MODEL
 70
     0
 62
     7
  6
Continuous
370
    -3
390
F
  0
LAYER
  5
7D
330
2
100
AcDbSymbolTableRecord
100
AcDbLayerTableRecord
  2
DETAYLANDıRMA
 70
     0
 62
   190
  6
Continuous
370
    -3
390
F
  0
LAYER
  5
7E
330
2
100
AcDbSymbolTableRecord
100
AcDbLayerTableRecord
  2
TOLERANS
 70
     0
 62
   230
  6
Continuous
370
    -3
390
F
  0
LAYER
  5
7F
330
2
100
AcDbSymbolTableRecord
100
AcDbLayerTableRecord
  2
MERKEZ_CIZGILERI
 70
     0
 62
    30
  6
Continuous
370
    -3
390
F
  0
LAYER
  5
80
330
2
100
AcDbSymbolTableRecord
100
AcDbLayerTableRecord
  2
KESIT-DETAY_CIZGILERI
 70
     0
 62
     7
  6
Continuous
370
    -3
390
F
  0
LAYER
  5
81
330
2
100
AcDbSymbolTableRecord
100
AcDbLayerTableRecord
  2
\U+041E\U+0421\U+0415\U+0412\U+042B\U+0415
 70
     0
 62
     7
  6
Continuous
370
    -3
390
F
  0
LAYER
  5
82
330
2
100
AcDbSymbolTableRecord
100
AcDbLayerTableRecord
  2
\U+0412\U+041E\U+0414\U+042F\U+041D\U+042B\U+0415_\U+0417\U+041D\U+0410\U+041A\U+0418
 70
     0
 62
    11
  6
Continuous
370
    -3
390
F
  0
ENDTAB
  0
TABLE
  2
STYLE
  5
3
330
0
100
AcDbSymbolTable
 70
     1
  0
STYLE
  5
11
330
3
100
AcDbSymbolTableRecord
100
AcDbTextStyleTableRecord
  2
Standard
 70
     0
 40
0.0
 41
1.0
 50
0.0
 71
     0
 42
3.5
  3
txt
  4

  0
ENDTAB
  0
TABLE
  2
VIEW
  5
6
330
0
100
AcDbSymbolTable
 70
     0
  0
ENDTAB
  0
TABLE
  2
UCS
  5
7
330
0
100
AcDbSymbolTable
 70
     0
  0
ENDTAB
  0
TABLE
  2
APPID
  5
9
330
0
100
AcDbSymbolTable
 70
     1
  0
APPID
  5
12
330
9
100
AcDbSymbolTableRecord
100
AcDbRegAppTableRecord
  2
ACAD
 70
     0
  0
ENDTAB
  0
TABLE
  2
DIMSTYLE
  5
A
330
0
100
AcDbSymbolTable
 70
     1
100
AcDbDimStyleTable
  0
DIMSTYLE
105
27
330
A
100
AcDbSymbolTableRecord
100
AcDbDimStyleTableRecord
  2
ISO-25
 70
     0
 41
2.5
 42
0.625
 43
3.75
 44
1.25
 73
     0
 74
     0
 77
     1
 78
     8
140
2.5
141
2.5
143
0.0393700787
147
0.625
171
     3
172
     1
178
     0
271
     2
272
     2
274
     3
278
    44
283
     0
284
     8
340
11
  0
ENDTAB
  0
TABLE
  2
BLOCK_RECORD
  5
1
330
0
100
AcDbSymbolTable
 70
     2
  0
BLOCK_RECORD
  5
1F
330
1
100
AcDbSymbolTableRecord
100
AcDbBlockTableRecord
  2
*Model_Space
340
22
  0
BLOCK_RECORD
  5
1B
330
1
100
AcDbSymbolTableRecord
100
AcDbBlockTableRecord
  2
*Paper_Space
340
1E
  0
BLOCK_RECORD
  5
23
330
1
100
AcDbSymbolTableRecord
100
AcDbBlockTableRecord
  2
*Paper_Space0
340
26
  0
BLOCK_RECORD
  5
88
330
1
100
AcDbSymbolTableRecord
100
AcDbBlockTableRecord
  2
SW_CENTERMARKSYMBOL_0
340
0
102
{BLKREFS
331
93
102
}
  0
ENDTAB
  0
ENDSEC
  0
SECTION
  2
BLOCKS
  0
BLOCK
  5
20
330
1F
100
AcDbEntity
  8
0
100
AcDbBlockBegin
  2
*Model_Space
 70
     0
 10
0.0
 20
0.0
 30
0.0
  3
*Model_Space
  1

  0
ENDBLK
  5
21
330
1F
100
AcDbEntity
  8
0
100
AcDbBlockEnd
  0
BLOCK
  5
1C
330
1B
100
AcDbEntity
 67
     1
  8
0
100
AcDbBlockBegin
  2
*Paper_Space
 70
     0
 10
0.0
 20
0.0
 30
0.0
  3
*Paper_Space
  1

  0
ENDBLK
  5
1D
330
1B
100
AcDbEntity
 67
     1
  8
0
100
AcDbBlockEnd
  0
BLOCK
  5
24
330
23
100
AcDbEntity
  8
0
100
AcDbBlockBegin
  2
*Paper_Space0
 70
     0
 10
0.0
 20
0.0
 30
0.0
  3
*Paper_Space0
  1

  0
ENDBLK
  5
25
330
23
100
AcDbEntity
  8
0
100
AcDbBlockEnd
  0
BLOCK
  5
89
330
88
100
AcDbEntity
  8
0
100
AcDbBlockBegin
  2
SW_CENTERMARKSYMBOL_0
 70
     0
 10
0.0
 20
0.0
 30
0.0
  3
SW_CENTERMARKSYMBOL_0
  1

  0
LINE
  5
8B
330
88
100
AcDbEntity
  8
FORMAT
 62
     0
100
AcDbLine
 10
0.0
 20
0.0
 30
0.0
 11
0.0
 21
2.5
 31
0.0
  0
LINE
  5
8C
330
88
100
AcDbEntity
  8
FORMAT
 62
     0
100
AcDbLine
 10
0.0
 20
0.0
 30
0.0
 11
-2.5
 21
0.0
 31
0.0
  0
LINE
  5
8D
330
88
100
AcDbEntity
  8
FORMAT
 62
     0
100
AcDbLine
 10
0.0
 20
0.0
 30
0.0
 11
0.0
 21
-2.5
 31
0.0
  0
LINE
  5
8E
330
88
100
AcDbEntity
  8
FORMAT
 62
     0
100
AcDbLine
 10
0.0
 20
0.0
 30
0.0
 11
2.5
 21
0.0
 31
0.0
  0
LINE
  5
8F
330
88
100
AcDbEntity
  8
FORMAT
 62
     0
100
AcDbLine
 10
0.0
 20
5.0
 30
0.0
 11
0.0
 21
82.5
 31
0.0
  0
LINE
  5
90
330
88
100
AcDbEntity
  8
FORMAT
 62
     0
100
AcDbLine
 10
-5.0
 20
0.0
 30
0.0
 11
-82.5
 21
0.0
 31
0.0
  0
LINE
  5
91
330
88
100
AcDbEntity
  8
FORMAT
 62
     0
100
AcDbLine
 10
0.0
 20
-5.0
 30
0.0
 11
0.0
 21
-82.5
 31
0.0
  0
LINE
  5
92
330
88
100
AcDbEntity
  8
FORMAT
 62
     0
100
AcDbLine
 10
5.0
 20
0.0
 30
0.0
 11
82.5
 21
0.0
 31
0.0
  0
ENDBLK
  5
8A
330
88
100
AcDbEntity
  8
0
100
AcDbBlockEnd
  0
ENDSEC
  0
SECTION
  2
ENTITIES
  0
CIRCLE
  5
83
330
1F
100
AcDbEntity
  8
0
  6
Continuous
 62
     7
370
    25
100
AcDbCircle
 10
139.395004093
 20
107.5851680021
 30
0.0
 40
80.0
  0
CIRCLE
  5
84
330
1F
100
AcDbEntity
  8
0
  6
Continuous
 62
     7
370
    25
100
AcDbCircle
 10
139.395004093
 20
107.5851680021
 30
0.0
 40
65.40000000000002
  0
CIRCLE
  5
85
330
1F
100
AcDbEntity
  8
0
  6
Continuous
 62
     7
370
    25
100
AcDbCircle
 10
139.395004093
 20
107.5851680021
 30
0.0
 40
65.31934955049957
  0
CIRCLE
  5
86
330
1F
100
AcDbEntity
  8
0
  6
Continuous
 62
     7
370
    25
100
AcDbCircle
 10
139.395004093
 20
107.5851680021
 30
0.0
 40
57.38065044950049
  0
CIRCLE
  5
87
330
1F
100
AcDbEntity
  8
0
  6
Continuous
 62
     7
370
    25
100
AcDbCircle
 10
139.395004093
 20
107.5851680021
 30
0.0
 40
57.30000000000003
  0
INSERT
  5
93
330
1F
100
AcDbEntity
  8
FORMAT
 62
     7
100
AcDbBlockReference
  2
SW_CENTERMARKSYMBOL_0
 10
139.395004093
 20
107.5851680021
 30
0.0
  0
ARC
  5
94
330
1F
100
AcDbEntity
  8
0
  6
Continuous
 62
     7
370
    25
100
AcDbCircle
 10
-136.3301998555
 20
185.5851680021
 30
0.0
 40
2.000000000000009
100
AcDbArc
 50
79.6951535312
 51
90.0
  0
ARC
  5
95
330
1F
100
AcDbEntity
  8
0
  6
Continuous
 62
     7
370
    25
100
AcDbCircle
 10
-136.3301998555
 20
29.5851680021
 30
0.0
 40
2.000000000000006
100
AcDbArc
 50
270.0
 51
280.3048464688
  0
LINE
  5
96
330
1F
100
AcDbEntity
  8
0
  6
Continuous
 62
     7
370
    25
100
AcDbLine
 10
-136.3302002193
 20
187.585166214
 30
0.0
 11
-234.1498582156
 21
187.585166214
 31
0.0
  0
LINE
  5
97
330
1F
100
AcDbEntity
  8
0
  6
Continuous
 62
     7
370
    25
100
AcDbLine
 10
-234.1498582156
 20
27.5851697903
 30
0.0
 11
-136.3302002193
 21
27.5851697903
 31
0.0
  0
LINE
  5
98
330
1F
100
AcDbEntity
  8
0
  6
Continuous
 62
     7
370
    25
100
AcDbLine
 10
-135.972428927
 20
27.6174308042
 30
0.0
 11
-81.3272892029
 21
37.5529066901
 31
0.0
  0
LINE
  5
99
330
1F
100
AcDbEntity
  8
0
  6
Continuous
 62
     7
370
    25
100
AcDbLine
 10
-81.3272892029
 20
177.6174293141
 30
0.0
 11
-135.972428927
 21
187.5529052
 31
0.0
  0
ARC
  5
9A
330
1F
100
AcDbEntity
  8
0
  6
Continuous
 62
     7
370
    25
100
AcDbCircle
 10
-80.9695200805
 20
179.5851680021
 30
0.0
 40
2.000000000000028
100
AcDbArc
 50
259.6951535312
 51
270.0
  0
ARC
  5
9B
330
1F
100
AcDbEntity
  8
0
  6
Continuous
 62
     7
370
    25
100
AcDbCircle
 10
-80.9695200805
 20
35.5851680021
 30
0.0
 40
2.000000000000014
100
AcDbArc
 50
90.0
 51
100.3048464688
  0
LINE
  5
9C
330
1F
100
AcDbEntity
  8
0
  6
Continuous
 62
     7
370
    25
100
AcDbLine
 10
10.8501391022
 20
177.5851683001
 30
0.0
 11
-80.9695197733
 21
177.5851683001
 31
0.0
  0
LINE
  5
9D
330
1F
100
AcDbEntity
  8
0
  6
Continuous
 62
     7
370
    25
100
AcDbLine
 10
-80.9695197733
 20
37.5851677041
 30
0.0
 11
10.8501391022
 21
37.5851677041
 31
0.0
  0
LINE
  5
9E
330
1F
100
AcDbEntity
  8
0
  6
Continuous
 62
     7
370
    25
100
AcDbLine
 10
-234.1498582156
 20
187.585166214
 30
0.0
 11
-234.1498582156
 21
27.5851697903
 31
0.0
  0
LINE
  5
9F
330
1F
100
AcDbEntity
  8
0
  6
Continuous
 62
     7
370
    25
100
AcDbLine
 10
10.8501391022
 20
177.5851683001
 30
0.0
 11
10.8501391022
 21
37.5851677041
 31
0.0
  0
LINE
  5
A0
330
1F
100
AcDbEntity
  8
0
  6
Continuous
 62
     1
370
    25
100
AcDbLine
 10
-135.972428927
 20
187.5529052
 30
0.0
 11
-135.972428927
 21
27.6174308042
 31
0.0
  0
LINE
  5
A1
330
1F
100
AcDbEntity
  8
0
  6
Continuous
 62
     1
370
    25
100
AcDbLine
 10
-136.3302002193
 20
187.585166214
 30
0.0
 11
-136.3302002193
 21
27.5851697903
 31
0.0
  0
LINE
  5
A2
330
1F
100
AcDbEntity
  8
0
  6
Continuous
 62
     1
370
    25
100
AcDbLine
 10
-81.3272892029
 20
177.6174293141
 30
0.0
 11
-81.3272892029
 21
37.5529066901
 31
0.0
  0
LINE
  5
A3
330
1F
100
AcDbEntity
  8
0
  6
Continuous
 62
     1
370
    25
100
AcDbLine
 10
-80.9695197733
 20
177.5851683001
 30
0.0
 11
-80.9695197733
 21
37.5851677041
 31
0.0
  0
ARC
  5
A4
330
1F
100
AcDbEntity
  8
0
  6
Continuous
 62
     7
370
    25
100
AcDbCircle
 10
416.7617775004
 20
29.5851680021
 30
0.0
 40
2.000000000000004
100
AcDbArc
 50
259.6951535312
 51
270.0
  0
ARC
  5
A5
330
1F
100
AcDbEntity
  8
0
  6
Continuous
 62
     7
370
    25
100
AcDbCircle
 10
416.7617775004
 20
185.5851680021
 30
0.0
 40
2.0
100
AcDbArc
 50
90.0
 51
100.3048464688
  0
LINE
  5
A6
330
1F
100
AcDbEntity
  8
0
  6
Continuous
 62
     7
370
    25
100
AcDbLine
 10
416.7617778643
 20
27.5851697903
 30
0.0
 11
514.5814358606
 21
27.5851697903
 31
0.0
  0
LINE
  5
A7
330
1F
100
AcDbEntity
  8
0
  6
Continuous
 62
     7
370
    25
100
AcDbLine
 10
514.5814358606
 20
187.585166214
 30
0.0
 11
416.7617778643
 21
187.585166214
 31
0.0
  0
LINE
  5
A8
330
1F
100
AcDbEntity
  8
0
  6
Continuous
 62
     7
370
    25
100
AcDbLine
 10
416.4040065719
 20
187.5529052
 30
0.0
 11
361.7588668479
 21
177.6174293141
 31
0.0
  0
LINE
  5
A9
330
1F
100
AcDbEntity
  8
0
  6
Continuous
 62
     7
370
    25
100
AcDbLine
 10
361.7588668479
 20
37.5529066901
 30
0.0
 11
416.4040065719
 21
27.6174308042
 31
0.0
  0
ARC
  5
AA
330
1F
100
AcDbEntity
  8
0
  6
Continuous
 62
     7
370
    25
100
AcDbCircle
 10
361.4010977254
 20
35.5851680021
 30
0.0
 40
2.000000000000014
100
AcDbArc
 50
79.6951535312
 51
90.0
  0
ARC
  5
AB
330
1F
100
AcDbEntity
  8
0
  6
Continuous
 62
     7
370
    25
100
AcDbCircle
 10
361.4010977254
 20
179.5851680021
 30
0.0
 40
2.000000000000028
100
AcDbArc
 50
270.0
 51
280.3048464688
  0
LINE
  5
AC
330
1F
100
AcDbEntity
  8
0
  6
Continuous
 62
     7
370
    25
100
AcDbLine
 10
269.5814385428
 20
37.5851677041
 30
0.0
 11
361.4010974182
 21
37.5851677041
 31
0.0
  0
LINE
  5
AD
330
1F
100
AcDbEntity
  8
0
  6
Continuous
 62
     7
370
    25
100
AcDbLine
 10
361.4010974182
 20
177.5851683001
 30
0.0
 11
269.5814385428
 21
177.5851683001
 31
0.0
  0
LINE
  5
AE
330
1F
100
AcDbEntity
  8
0
  6
Continuous
 62
     7
370
    25
100
AcDbLine
 10
514.5814358606
 20
107.5851680021
 30
0.0
 11
514.5814358606
 21
187.585166214
 31
0.0
  0
LINE
  5
AF
330
1F
100
AcDbEntity
  8
0
  6
Continuous
 62
     7
370
    25
100
AcDbLine
 10
514.5814358606
 20
27.5851697903
 30
0.0
 11
514.5814358606
 21
107.5851680021
 31
0.0
  0
LINE
  5
B0
330
1F
100
AcDbEntity
  8
0
  6
Continuous
 62
     7
370
    25
100
AcDbLine
 10
269.5814385428
 20
107.5851680021
 30
0.0
 11
269.5814385428
 21
177.5851683001
 31
0.0
  0
LINE
  5
B1
330
1F
100
AcDbEntity
  8
0
  6
Continuous
 62
     7
370
    25
100
AcDbLine
 10
269.5814385428
 20
37.5851677041
 30
0.0
 11
269.5814385428
 21
107.5851680021
 31
0.0
  0
LINE
  5
B2
330
1F
100
AcDbEntity
  8
0
  6
Continuous
 62
     1
370
    25
100
AcDbLine
 10
416.4040065719
 20
107.5851680021
 30
0.0
 11
416.4040065719
 21
187.5529052
 31
0.0
  0
LINE
  5
B3
330
1F
100
AcDbEntity
  8
0
  6
Continuous
 62
     1
370
    25
100
AcDbLine
 10
416.4040065719
 20
27.6174308042
 30
0.0
 11
416.4040065719
 21
107.5851680021
 31
0.0
  0
LINE
  5
B4
330
1F
100
AcDbEntity
  8
0
  6
Continuous
 62
     1
370
    25
100
AcDbLine
 10
416.7617778643
 20
107.5851680021
 30
0.0
 11
416.7617778643
 21
187.585166214
 31
0.0
  0
LINE
  5
B5
330
1F
100
AcDbEntity
  8
0
  6
Continuous
 62
     1
370
    25
100
AcDbLine
 10
416.7617778643
 20
27.5851697903
 30
0.0
 11
416.7617778643
 21
107.5851680021
 31
0.0
  0
LINE
  5
B6
330
1F
100
AcDbEntity
  8
0
  6
Continuous
 62
     1
370
    25
100
AcDbLine
 10
361.7588668479
 20
107.5851680021
 30
0.0
 11
361.7588668479
 21
177.6174293141
 31
0.0
  0
LINE
  5
B7
330
1F
100
AcDbEntity
  8
0
  6
Continuous
 62
     1
370
    25
100
AcDbLine
 10
361.7588668479
 20
37.5529066901
 30
0.0
 11
361.7588668479
 21
107.5851680021
 31
0.0
  0
LINE
  5
B8
330
1F
100
AcDbEntity
  8
0
  6
Continuous
 62
     1
370
    25
100
AcDbLine
 10
361.4010974182
 20
107.5851680021
 30
0.0
 11
361.4010974182
 21
177.5851683001
 31
0.0
  0
LINE
  5
B9
330
1F
100
AcDbEntity
  8
0
  6
Continuous
 62
     1
370
    25
100
AcDbLine
 10
361.4010974182
 20
37.5851677041
 30
0.0
 11
361.4010974182
 21
107.5851680021
 31
0.0
  0
ARC
  5
BA
330
1F
100
AcDbEntity
  8
0
  6
Continuous
 62
     7
370
    25
100
AcDbCircle
 10
217.395004093
 20
354.4104469186
 30
0.0
 40
2.000000000000009
100
AcDbArc
 50
349.6951535312
 51
0.0
  0
ARC
  5
BB
330
1F
100
AcDbEntity
  8
0
  6
Continuous
 62
     7
370
    25
100
AcDbCircle
 10
61.395004093
 20
354.4104469186
 30
0.0
 40
2.000000000000009
100
AcDbArc
 50
180.0
 51
190.3048464688
  0
LINE
  5
BC
330
1F
100
AcDbEntity
  8
0
  6
Continuous
 62
     7
370
    25
100
AcDbLine
 10
219.3950023049
 20
354.4104472824
 30
0.0
 11
219.3950023049
 21
452.2301052787
 31
0.0
  0
LINE
  5
BD
330
1F
100
AcDbEntity
  8
0
  6
Continuous
 62
     7
370
    25
100
AcDbLine
 10
59.3950058812
 20
452.2301052787
 30
0.0
 11
59.3950058812
 21
354.4104472824
 31
0.0
  0
LINE
  5
BE
330
1F
100
AcDbEntity
  8
0
  6
Continuous
 62
     7
370
    25
100
AcDbLine
 10
59.4272668952
 20
354.0526759901
 30
0.0
 11
69.362742781
 21
299.407536266
 31
0.0
  0
LINE
  5
BF
330
1F
100
AcDbEntity
  8
0
  6
Continuous
 62
     7
370
    25
100
AcDbLine
 10
209.4272654051
 20
299.407536266
 30
0.0
 11
219.3627412909
 21
354.0526759901
 31
0.0
  0
ARC
  5
C0
330
1F
100
AcDbEntity
  8
0
  6
Continuous
 62
     7
370
    25
100
AcDbCircle
 10
211.395004093
 20
299.0497671436
 30
0.0
 40
2.000000000000009
100
AcDbArc
 50
169.6951535312
 51
180.0
  0
ARC
  5
C1
330
1F
100
AcDbEntity
  8
0
  6
Continuous
 62
     7
370
    25
100
AcDbCircle
 10
67.395004093
 20
299.0497671436
 30
0.0
 40
2.000000000000014
100
AcDbArc
 50
0.0
 51
10.3048464688
  0
LINE
  5
C2
330
1F
100
AcDbEntity
  8
0
  6
Continuous
 62
     7
370
    25
100
AcDbLine
 10
209.3950043911
 20
207.2301079609
 30
0.0
 11
209.3950043911
 21
299.0497668364
 31
0.0
  0
LINE
  5
C3
330
1F
100
AcDbEntity
  8
0
  6
Continuous
 62
     7
370
    25
100
AcDbLine
 10
69.395003795
 20
299.0497668364
 30
0.0
 11
69.395003795
 21
207.2301079609
 31
0.0
  0
LINE
  5
C4
330
1F
100
AcDbEntity
  8
0
  6
Continuous
 62
     7
370
    25
100
AcDbLine
 10
219.3950023049
 20
452.2301052787
 30
0.0
 11
59.3950058812
 21
452.2301052787
 31
0.0
  0
LINE
  5
C5
330
1F
100
AcDbEntity
  8
0
  6
Continuous
 62
     7
370
    25
100
AcDbLine
 10
209.3950043911
 20
207.2301079609
 30
0.0
 11
69.395003795
 21
207.2301079609
 31
0.0
  0
LINE
  5
C6
330
1F
100
AcDbEntity
  8
0
  6
Continuous
 62
     1
370
    25
100
AcDbLine
 10
219.3627412909
 20
354.0526759901
 30
0.0
 11
59.4272668952
 21
354.0526759901
 31
0.0
  0
LINE
  5
C7
330
1F
100
AcDbEntity
  8
0
  6
Continuous
 62
     1
370
    25
100
AcDbLine
 10
219.3950023049
 20
354.4104472824
 30
0.0
 11
59.3950058812
 21
354.4104472824
 31
0.0
  0
LINE
  5
C8
330
1F
100
AcDbEntity
  8
0
  6
Continuous
 62
     1
370
    25
100
AcDbLine
 10
209.4272654051
 20
299.407536266
 30
0.0
 11
69.362742781
 21
299.407536266
 31
0.0
  0
LINE
  5
C9
330
1F
100
AcDbEntity
  8
0
  6
Continuous
 62
     1
370
    25
100
AcDbLine
 10
209.3950043911
 20
299.0497668364
 30
0.0
 11
69.395003795
 21
299.0497668364
 31
0.0
  0
ARC
  5
CA
330
1F
100
AcDbEntity
  8
0
  6
Continuous
 62
     7
370
    25
100
AcDbCircle
 10
61.395004093
 20
-142.5982506059
 30
0.0
 40
2.000000000000004
100
AcDbArc
 50
169.6951535312
 51
180.0
  0
ARC
  5
CB
330
1F
100
AcDbEntity
  8
0
  6
Continuous
 62
     7
370
    25
100
AcDbCircle
 10
217.395004093
 20
-142.5982506059
 30
0.0
 40
2.000000000000004
100
AcDbArc
 50
0.0
 51
10.3048464688
  0
LINE
  5
CC
330
1F
100
AcDbEntity
  8
0
  6
Continuous
 62
     7
370
    25
100
AcDbLine
 10
59.3950058812
 20
-142.5982509697
 30
0.0
 11
59.3950058812
 21
-240.417908966
 31
0.0
  0
LINE
  5
CD
330
1F
100
AcDbEntity
  8
0
  6
Continuous
 62
     7
370
    25
100
AcDbLine
 10
219.3950023049
 20
-240.417908966
 30
0.0
 11
219.3950023049
 21
-142.5982509697
 31
0.0
  0
LINE
  5
CE
330
1F
100
AcDbEntity
  8
0
  6
Continuous
 62
     7
370
    25
100
AcDbLine
 10
219.3627412909
 20
-142.2404796774
 30
0.0
 11
209.4272654051
 21
-87.5953399534
 31
0.0
  0
LINE
  5
CF
330
1F
100
AcDbEntity
  8
0
  6
Continuous
 62
     7
370
    25
100
AcDbLine
 10
69.362742781
 20
-87.5953399534
 30
0.0
 11
59.4272668952
 21
-142.2404796774
 31
0.0
  0
ARC
  5
D0
330
1F
100
AcDbEntity
  8
0
  6
Continuous
 62
     7
370
    25
100
AcDbCircle
 10
67.395004093
 20
-87.2375708309
 30
0.0
 40
2.000000000000014
100
AcDbArc
 50
349.6951535312
 51
0.0
  0
ARC
  5
D1
330
1F
100
AcDbEntity
  8
0
  6
Continuous
 62
     7
370
    25
100
AcDbCircle
 10
211.395004093
 20
-87.2375708309
 30
0.0
 40
2.000000000000009
100
AcDbArc
 50
180.0
 51
190.3048464688
  0
LINE
  5
D2
330
1F
100
AcDbEntity
  8
0
  6
Continuous
 62
     7
370
    25
100
AcDbLine
 10
69.395003795
 20
4.5820883518
 30
0.0
 11
69.395003795
 21
-87.2375705237
 31
0.0
  0
LINE
  5
D3
330
1F
100
AcDbEntity
  8
0
  6
Continuous
 62
     7
370
    25
100
AcDbLine
 10
209.3950043911
 20
-87.2375705237
 30
0.0
 11
209.3950043911
 21
4.5820883518
 31
0.0
  0
LINE
  5
D4
330
1F
100
AcDbEntity
  8
0
  6
Continuous
 62
     7
370
    25
100
AcDbLine
 10
59.3950058812
 20
-240.417908966
 30
0.0
 11
219.3950023049
 21
-240.417908966
 31
0.0
  0
LINE
  5
D5
330
1F
100
AcDbEntity
  8
0
  6
Continuous
 62
     7
370
    25
100
AcDbLine
 10
69.395003795
 20
4.5820883518
 30
0.0
 11
209.3950043911
 21
4.5820883518
 31
0.0
  0
LINE
  5
D6
330
1F
100
AcDbEntity
  8
0
  6
Continuous
 62
     1
370
    25
100
AcDbLine
 10
59.4272668952
 20
-142.2404796774
 30
0.0
 11
219.3627412909
 21
-142.2404796774
 31
0.0
  0
LINE
  5
D7
330
1F
100
AcDbEntity
  8
0
  6
Continuous
 62
     1
370
    25
100
AcDbLine
 10
59.3950058812
 20
-142.5982509697
 30
0.0
 11
219.3950023049
 21
-142.5982509697
 31
0.0
  0
LINE
  5
D8
330
1F
100
AcDbEntity
  8
0
  6
Continuous
 62
     1
370
    25
100
AcDbLine
 10
69.362742781
 20
-87.5953399534
 30
0.0
 11
209.4272654051
 21
-87.5953399534
 31
0.0
  0
LINE
  5
D9
330
1F
100
AcDbEntity
  8
0
  6
Continuous
 62
     1
370
    25
100
AcDbLine
 10
69.395003795
 20
-87.2375705237
 30
0.0
 11
209.3950043911
 21
-87.2375705237
 31
0.0
  0
LINE
  5
DA
330
1F
100
AcDbEntity
  8
0
  6
Continuous
 62
     7
370
    25
100
AcDbLine
 10
415.5769946257
 20
-40.6593251725
 30
0.0
 11
346.4080511232
 21
-0.7289440306
 31
0.0
  0
LINE
  5
DB
330
1F
100
AcDbEntity
  8
0
  6
Continuous
 62
     7
370
    25
100
AcDbLine
 10
266.4145549081
 20
-139.2967579228
 30
0.0
 11
335.5834984107
 21
-179.2271390648
 31
0.0
  0
LINE
  5
DC
330
1F
100
AcDbEntity
  8
0
  6
Continuous
 62
     7
370
    25
100
AcDbLine
 10
341.3258155424
 20
-181.7384438917
 30
0.0
 11
384.2530893446
 21
-195.1428611038
 31
0.0
  0
LINE
  5
DD
330
1F
100
AcDbEntity
  8
0
  6
Continuous
 62
     7
370
    25
100
AcDbLine
 10
453.6984200259
 20
-74.8469860345
 30
0.0
 11
420.6233592872
 21
-44.3761888755
 31
0.0
  0
LINE
  5
DE
330
1F
100
AcDbEntity
  8
0
  6
Continuous
 62
     7
370
    25
100
AcDbLine
 10
514.6496171039
 20
-109.3994234813
 30
0.0
 11
451.8554226342
 21
-73.1491066236
 31
0.0
  0
LINE
  5
DF
330
1F
100
AcDbEntity
  8
0
  6
Continuous
 62
     7
370
    25
100
AcDbLine
 10
381.861113446
 20
-194.3959468212
 30
0.0
 11
444.6553079157
 21
-230.6462636789
 31
0.0
  0
ARC
  5
E0
330
1F
100
AcDbEntity
  8
0
  6
Continuous
 62
     7
370
    25
100
AcDbCircle
 10
402.1677528013
 20
-63.8792638017
 30
0.0
 40
26.81367778303363
100
AcDbArc
 50
52.0502951085
 51
59.99407088
  0
ARC
  5
E1
330
1F
100
AcDbEntity
  8
0
  6
Continuous
 62
     7
370
    25
100
AcDbCircle
 10
348.9979793252
 20
-155.9780374677
 30
0.0
 40
26.84155403987581
100
AcDbArc
 50
240.0155175226
 51
247.9068347192
  0
LWPOLYLINE
  5
E2
330
1F
100
AcDbEntity
  8
0
  6
Continuous
 62
     7
370
    25
100
AcDbPolyline
 90
      118
 70
   128
 43
0.0
 10
249.8427617852
 20
-102.6691747197
 10
249.9243106687
 20
-99.1157647583
 10
250.1687307799
 20
-95.4784408322
 10
250.5753108908
 20
-91.7676946009
 10
251.1428761579
 20
-87.9942260473
 10
251.8697986592
 20
-84.1689088775
 10
252.7539815891
 20
-80.3027756904
 10
253.7928645264
 20
-76.4069791944
 10
254.9834655816
 20
-72.4927405003
 10
256.3223445182
 20
-68.5713567219
 10
257.8056448997
 20
-64.654126455
 10
259.4290888207
 20
-60.752343693
 10
261.1879927129
 20
-56.8772658891
 10
263.0772857835
 20
-53.0400607256
 10
265.0915231865
 20
-49.2517924266
 10
267.2248965594
 20
-45.523382215
 10
269.4712524622
 20
-41.8655855007
 10
271.8241187196
 20
-38.288943213
 10
274.2767070547
 20
-34.8037650707
 10
276.8219499679
 20
-31.420105251
 10
279.4525060051
 20
-28.147719804
 10
282.1607887334
 20
-24.9960438414
 10
284.9389944005
 20
-21.9741573183
 10
287.7791098368
 20
-19.0907865548
 10
290.6729466998
 20
-16.3542297143
 10
293.6121612308
 20
-13.7723879837
 10
296.5882786203
 20
-11.3527028379
 10
299.592718692
 20
-9.1021533804
 10
302.616818293
 20
-7.0272190828
 10
305.6518586231
 20
-5.1338883427
 10
308.6890886137
 20
-3.4276267363
 10
311.7197509399
 20
-1.9133437507
 10
314.7351080332
 20
-0.5954081859
 10
317.7264648012
 20
0.5223771288
 10
320.6851972743
 20
1.4367918719
 10
323.6027746669
 20
2.1451987981
 10
326.4707847314
 20
2.6455522911
 10
329.280957466
 20
2.9364181334
 10
332.0251914561
 20
3.0169522109
 10
334.6955736309
 20
2.8869180018
 10
337.2844069222
 20
2.5466964596
 10
339.7842234353
 20
1.9972692824
 10
342.187816059
 20
1.2402158672
 10
344.4882569052
 20
0.2777209136
 10
346.6789131135
 20
-0.8874377455
 10
348.7534652909
 20
-2.251902834
 10
350.7059338533
 20
-3.8117437186
 10
352.5306921962
 20
-5.5624548891
 10
354.2224719638
 20
-7.4989985451
 10
355.776405195
 20
-9.6157802646
 10
357.1880032504
 20
-11.9067067979
 10
358.4531989591
 20
-14.365164778
 10
359.5683466188
 20
-16.9840709115
 10
360.5302272639
 20
-19.7558719788
 10
361.3360644707
 20
-22.6725798172
 10
361.983545431
 20
-25.7257796879
 10
362.4707946099
 20
-28.9066713382
 10
362.7964106248
 20
-32.2060823135
 10
362.9594557082
 20
-35.6144987549
 10
362.9594557082
 20
-39.1220958174
 10
362.7964106248
 20
-42.7187601051
 10
362.4707946099
 20
-46.394119329
 10
361.983545431
 20
-50.1375769067
 10
361.3360644707
 20
-53.9383423817
 10
360.5302272639
 20
-57.785450055
 10
359.5683466188
 20
-61.6678148761
 10
358.4531989591
 20
-65.5742430918
 10
357.1880032504
 20
-69.4934649439
 10
355.776405195
 20
-73.4141879008
 10
354.2224719638
 20
-77.3251027398
 10
352.5306921962
 20
-81.2149337386
 10
350.7059338533
 20
-85.072466047
 10
348.7534652909
 20
-88.8865791501
 10
346.6789131135
 20
-92.6462711988
 10
344.4882569052
 20
-96.3407076789
 10
342.187816059
 20
-99.9592350982
 10
339.7842234353
 20
-103.4914174865
 10
337.2844069222
 20
-106.9270713746
 10
334.6955736309
 20
-110.2562962122
 10
332.0251914561
 20
-113.4694880535
 10
329.280957466
 20
-116.5573790991
 10
326.4707847314
 20
-119.5110696338
 10
323.6027746669
 20
-122.3220500777
 10
320.6851972743
 20
-124.9822063071
 10
317.7264648012
 20
-127.4838713641
 10
314.7351080332
 20
-129.8198330586
 10
311.7197509399
 20
-131.9833546889
 10
308.6890886137
 20
-133.9681999441
 10
305.6518586231
 20
-135.7686494424
 10
302.616818293
 20
-137.3795016788
 10
299.592718692
 20
-138.7961184607
 10
296.5882786203
 20
-140.0144216734
 10
293.6121612308
 20
-141.030888525
 10
290.6729466998
 20
-141.8425916582
 10
287.7791098368
 20
-142.4471877413
 10
284.9389944005
 20
-142.8429444624
 10
282.1607887334
 20
-143.0287059258
 10
279.4525060051
 20
-143.003946643
 10
276.8219499679
 20
-142.7687365484
 10
274.2767070547
 20
-142.3237516449
 10
271.8241187196
 20
-141.6702717199
 10
269.4712524622
 20
-140.8101909893
 10
267.2248965594
 20
-139.7459815944
 10
265.0915231865
 20
-138.4807118497
 10
263.0772857835
 20
-137.0180325546
 10
261.1879927129
 20
-135.3621587394
 10
259.4290888207
 20
-133.517868143
 10
257.8056448997
 20
-131.4904738348
 10
256.3223445182
 20
-129.285825735
 10
254.9834655816
 20
-126.9102786727
 10
253.7928645264
 20
-124.370678697
 10
252.7539815891
 20
-121.674350909
 10
251.8697986592
 20
-118.8290736032
 10
251.1428761579
 20
-115.8430432887
 10
250.5753108908
 20
-112.7248716441
 10
250.1687307799
 20
-109.4835528168
 10
249.9243106687
 20
-106.1284303443
 10
249.8427617852
 20
-102.6691747197
  0
LWPOLYLINE
  5
E3
330
1F
100
AcDbEntity
  8
0
  6
Continuous
 62
     7
370
    25
100
AcDbPolyline
 90
      107
 70
   128
 43
0.0
 10
260.1665216924
 20
-96.7093949827
 10
260.2477386695
 20
-93.4989550849
 10
260.4911051095
 20
-90.2060205587
 10
260.8957728071
 20
-86.8421539725
 10
261.4603140379
 20
-83.4191741166
 10
262.1827478998
 20
-79.9491037234
 10
263.0605350454
 20
-76.4441335352
 10
264.0905908521
 20
-72.9165736359
 10
265.2693038619
 20
-69.3788131479
 10
266.5925278785
 20
-65.843279167
 10
268.0556162119
 20
-62.3223926577
 10
269.6534322149
 20
-58.8285182649
 10
271.38035982
 20
-55.3739293326
 10
273.2303351493
 20
-51.9707592377
 10
275.1968596856
 20
-48.630963368
 10
277.2730266141
 20
-45.3662704551
 10
279.4515445301
 20
-42.1881506369
 10
281.7247558779
 20
-39.1077683112
 10
284.0846817324
 20
-36.1359410744
 10
286.5230310182
 20
-33.2831039807
 10
289.0312373883
 20
-30.5592852109
 10
291.6004934684
 20
-27.9740467595
 10
294.2217719305
 20
-25.5364722691
 10
296.8858663224
 20
-23.2551191252
 10
299.583419385
 20
-21.1380081927
 10
302.3049559801
 20
-19.1925683048
 10
305.0409161817
 20
-17.4256384529
 10
307.7816898497
 20
-15.8434234928
 10
310.5176500512
 20
-14.4514809344
 10
313.2391866463
 20
-13.2547015536
 10
315.936739709
 20
-12.2572840147
 10
318.6008341008
 20
-11.4627392461
 10
321.2221125629
 20
-10.8738500442
 10
323.7913686431
 20
-10.492688567
 10
326.2995750131
 20
-10.3205939031
 10
328.7379242989
 20
-10.358172836
 10
331.0978501534
 20
-10.6052876783
 10
333.3710615013
 20
-11.0610760478
 10
335.5495794172
 20
-11.7239326191
 10
337.6257463458
 20
-12.5915342199
 10
339.5922708821
 20
-13.660829189
 10
341.4422462114
 20
-14.9280632333
 10
343.1691738164
 20
-16.3887839935
 10
344.7669898194
 20
-18.0378592969
 10
346.2300781528
 20
-19.869499973
 10
347.5533021694
 20
-21.8772720237
 10
348.7320151792
 20
-24.0541194384
 10
349.7620709859
 20
-26.3924022178
 10
350.6398581315
 20
-28.8839009401
 10
351.3622919935
 20
-31.5198669507
 10
351.9268332242
 20
-34.2910413756
 10
352.3315009218
 20
-37.1876885832
 10
352.5748673618
 20
-40.1996381987
 10
352.6560843389
 20
-43.3163069707
 10
352.5748673618
 20
-46.5267468685
 10
352.3315009218
 20
-49.8196813947
 10
351.9268332242
 20
-53.1835479809
 10
351.3622919935
 20
-56.6065278368
 10
350.6398581315
 20
-60.07659823
 10
349.7620709859
 20
-63.5815684182
 10
348.7320151792
 20
-67.1091283175
 10
347.5533021694
 20
-70.6468888054
 10
346.2300781528
 20
-74.1824227864
 10
344.7669898194
 20
-77.7033092956
 10
343.1691738164
 20
-81.1971836884
 10
341.4422462114
 20
-84.6517726207
 10
339.5922708821
 20
-88.0549427156
 10
337.6257463458
 20
-91.3947385853
 10
335.5495794172
 20
-94.6594314983
 10
333.3710615013
 20
-97.8375513165
 10
331.0978501534
 20
-100.9179336422
 10
328.7379242989
 20
-103.889760879
 10
326.2995750131
 20
-106.7425979727
 10
323.7913686431
 20
-109.4664167425
 10
321.2221125629
 20
-112.0516551939
 10
318.6008341008
 20
-114.4892296843
 10
315.936739709
 20
-116.7705828281
 10
313.2391866463
 20
-118.8876937607
 10
310.5176500512
 20
-120.8331336486
 10
307.7816898497
 20
-122.6000635005
 10
305.0409161817
 20
-124.1822784606
 10
302.3049559801
 20
-125.574221019
 10
299.583419385
 20
-126.7710003997
 10
296.8858663224
 20
-127.7684179387
 10
294.2217719305
 20
-128.5629627073
 10
291.6004934684
 20
-129.1518519092
 10
289.0312373883
 20
-129.5330133863
 10
286.5230310182
 20
-129.7051080502
 10
284.0846817324
 20
-129.6675291174
 10
281.7247558779
 20
-129.420414275
 10
279.4515445301
 20
-128.9646259055
 10
277.2730266141
 20
-128.3017693343
 10
275.1968596856
 20
-127.4341677335
 10
273.2303351493
 20
-126.3648727644
 10
271.38035982
 20
-125.09763872
 10
269.6534322149
 20
-123.6369179599
 10
268.0556162119
 20
-121.9878426565
 10
266.5925278785
 20
-120.1562019804
 10
265.2693038619
 20
-118.1484299296
 10
264.0905908521
 20
-115.9715825149
 10
263.0605350454
 20
-113.6332997356
 10
262.1827478998
 20
-111.1418010133
 10
261.4603140379
 20
-108.5058350027
 10
260.8957728071
 20
-105.7346605777
 10
260.4911051095
 20
-102.8380133702
 10
260.2477386695
 20
-99.8260637547
 10
260.1665216924
 20
-96.7093949827
  0
ARC
  5
E4
330
1F
100
AcDbEntity
  8
0
  6
Continuous
 62
     7
370
    25
100
AcDbCircle
 10
401.4669842482
 20
-65.2210599819
 30
0.0
 40
28.30951267440279
100
AcDbArc
 50
38.8793093589
 51
53.8556767881
  0
ARC
  5
E5
330
1F
100
AcDbEntity
  8
0
  6
Continuous
 62
     7
370
    25
100
AcDbCircle
 10
349.773173402
 20
-154.8071863008
 30
0.0
 40
28.22488024168668
100
AcDbArc
 50
246.1268927953
 51
261.1364849018
  0
LWPOLYLINE
  5
E6
330
1F
100
AcDbEntity
  8
0
  6
Continuous
 62
     7
370
    25
100
AcDbPolyline
 90
        3
 70
   128
 43
0.0
 10
453.6984200259
 20
-74.8469860345
 10
454.5359305893
 20
-75.6558807844
 10
455.7163004971
 20
-76.9353760592
  0
LWPOLYLINE
  5
E7
330
1F
100
AcDbEntity
  8
0
  6
Continuous
 62
     7
370
    25
100
AcDbPolyline
 90
        3
 70
   128
 43
0.0
 10
386.8859081407
 20
-195.8101649046
 10
386.5217883455
 20
-195.7355856027
 10
384.2530893446
 20
-195.1428611038
  0
LWPOLYLINE
  5
E8
330
1F
100
AcDbEntity
  8
0
  6
Continuous
 62
     7
370
    25
100
AcDbPolyline
 90
       57
 70
   128
 43
0.0
 10
514.6496171039
 20
-109.3994234813
 10
516.1192882481
 20
-110.3222857643
 10
517.9705174462
 20
-111.7206663147
 10
519.696760165
 20
-113.3092177808
 10
521.292387166
 20
-115.0827547983
 10
522.7521933136
 20
-117.035497361
 10
524.0714160137
 20
-119.1610753846
 10
525.2457589222
 20
-121.4525484817
 10
526.2713814072
 20
-123.9024515883
 10
527.1449433313
 20
-126.502788884
 10
527.8635945136
 20
-129.2450794192
 10
528.4249905357
 20
-132.12037917
 10
528.8272980099
 20
-135.1193106963
 10
529.0692103836
 20
-138.2320882391
 10
529.1499374036
 20
-141.4485595446
 10
529.0692103836
 20
-144.7582362835
 10
528.8272980099
 20
-148.1503199078
 10
528.4249905357
 20
-151.6137457567
 10
527.8635945136
 20
-155.1372195578
 10
527.1449433313
 20
-158.7092470868
 10
526.2713814072
 20
-162.3181775114
 10
525.2457589222
 20
-165.9522391337
 10
524.0714160137
 20
-169.5995796925
 10
522.7521933136
 20
-173.2482998247
 10
521.292387166
 20
-176.8864986894
 10
519.696760165
 20
-180.5023074285
 10
517.9705174462
 20
-184.0839363138
 10
516.1192882481
 20
-187.6197006008
 10
514.1491127411
 20
-191.0980676759
 10
512.0664156852
 20
-194.5076935567
 10
509.8779906257
 20
-197.8374533085
 10
507.5909761849
 20
-201.0764881911
 10
505.2128323551
 20
-204.2142315121
 10
502.7513167907
 20
-207.2404496899
 10
500.214457149
 20
-210.1452734298
 10
497.6105273835
 20
-212.9192235778
 10
494.9480227181
 20
-215.5532559854
 10
492.2356280378
 20
-218.0387797578
 10
489.4821889126
 20
-220.367683107
 10
486.6966878894
 20
-222.5323713723
 10
483.8882092606
 20
-224.52578736
 10
481.0659148619
 20
-226.3414253143
 10
478.2390101577
 20
-227.9733626632
 10
475.4167157589
 20
-229.4162764615
 10
472.6082371301
 20
-230.665460878
 10
469.8227361069
 20
-231.716843638
 10
467.0692969817
 20
-232.5669934348
 10
464.3569023015
 20
-233.2131339008
 10
461.6943976361
 20
-233.6531639466
 10
459.0904678705
 20
-233.8856471122
 10
456.5536082289
 20
-233.9098191691
 10
454.0920926644
 20
-233.7256063683
 10
451.7139488346
 20
-233.3336094683
 10
449.4269343939
 20
-232.7351052537
 10
447.2385093343
 20
-231.9320472933
 10
445.1558122785
 20
-230.9270522492
 10
444.6553079157
 20
-230.6462636789
  0
LWPOLYLINE
  5
E9
330
1F
100
AcDbEntity
  8
0
  6
Continuous
 62
     1
370
    25
100
AcDbPolyline
 90
       57
 70
   128
 43
0.0
 10
418.6573470985
 20
-42.7353144033
 10
419.8748773558
 20
-43.7421248606
 10
421.6996356988
 20
-45.4928360311
 10
423.3914154664
 20
-47.429379687
 10
424.9453486975
 20
-49.5461614066
 10
426.3569467529
 20
-51.8370879399
 10
427.6221424617
 20
-54.29554592
 10
428.7372901213
 20
-56.9144520534
 10
429.6991707664
 20
-59.6862531207
 10
430.5050079732
 20
-62.6029609592
 10
431.1524889335
 20
-65.6561608298
 10
431.6397381124
 20
-68.8370524802
 10
431.9653541273
 20
-72.1364634555
 10
432.1283992108
 20
-75.5448798968
 10
432.1283992108
 20
-79.0524769594
 10
431.9653541273
 20
-82.6491412471
 10
431.6397381124
 20
-86.3245004709
 10
431.1524889335
 20
-90.0679580487
 10
430.5050079732
 20
-93.8687235237
 10
429.6991707664
 20
-97.715831197
 10
428.7372901213
 20
-101.5981960181
 10
427.6221424617
 20
-105.5046242337
 10
426.3569467529
 20
-109.4238460859
 10
424.9453486975
 20
-113.3445690427
 10
423.3914154664
 20
-117.2554838818
 10
421.6996356988
 20
-121.1453148805
 10
419.8748773558
 20
-125.0028471889
 10
417.9224087934
 20
-128.816960292
 10
415.847856616
 20
-132.5766523407
 10
413.6572004077
 20
-136.2710888208
 10
411.3567595615
 20
-139.8896162402
 10
408.9531669378
 20
-143.4217986284
 10
406.4533504247
 20
-146.8574525166
 10
403.8645171335
 20
-150.1866773541
 10
401.1941349587
 20
-153.3998691954
 10
398.4499009686
 20
-156.487760241
 10
395.639728234
 20
-159.4414507758
 10
392.7717181694
 20
-162.2524312196
 10
389.8541407768
 20
-164.912587449
 10
386.8954083037
 20
-167.414252506
 10
383.9040515357
 20
-169.7502142006
 10
380.8886944424
 20
-171.9137358308
 10
377.8580321162
 20
-173.8985810861
 10
374.8208021256
 20
-175.6990305843
 10
371.7857617955
 20
-177.3098828207
 10
368.7616621946
 20
-178.7264996026
 10
365.7572221228
 20
-179.9448028153
 10
362.7811047333
 20
-180.9612696669
 10
359.8418902024
 20
-181.7729728001
 10
356.9480533393
 20
-182.3775688833
 10
354.107937903
 20
-182.7733256044
 10
351.3297322359
 20
-182.9590870678
 10
348.6214495076
 20
-182.934327785
 10
345.9908934704
 20
-182.6991176903
 10
343.4456505572
 20
-182.2541327868
 10
340.9930622221
 20
-181.6006528619
 10
338.9025021448
 20
-180.8487102326
  0
LWPOLYLINE
  5
EA
330
1F
100
AcDbEntity
  8
0
  6
Continuous
 62
     1
370
    25
100
AcDbPolyline
 90
       53
 70
   128
 43
0.0
 10
423.5050868339
 20
-47.451689079
 10
423.6251210584
 20
-47.6006293948
 10
425.1784220869
 20
-49.7165623784
 10
426.5894511598
 20
-52.0065641354
 10
427.8541411064
 20
-54.4640273826
 10
428.9688356874
 20
-57.081879472
 10
429.9303264742
 20
-59.8525656641
 10
430.7358423113
 20
-62.7680947549
 10
431.3830598537
 20
-65.8200641719
 10
431.8701141035
 20
-68.9996721426
 10
432.1955984094
 20
-72.2977530559
 10
432.3585750043
 20
-75.7047968553
 10
432.3585750043
 20
-79.2109794569
 10
432.1955984094
 20
-82.8061920274
 10
431.8701141035
 20
-86.4800691214
 10
431.3830598537
 20
-90.2220179591
 10
430.7358423113
 20
-94.0212488447
 10
429.9303264742
 20
-97.8668067248
 10
428.9688356874
 20
-101.7476065498
 10
427.8541411064
 20
-105.6524576079
 10
426.5894511598
 20
-109.5701007866
 10
425.1784220869
 20
-113.489242034
 10
423.6251210584
 20
-117.3985782114
 10
421.9340209088
 20
-121.2868396785
 10
420.1100001356
 20
-125.14281767
 10
418.1583165584
 20
-128.9553916699
 10
416.0845994154
 20
-132.7135704758
 10
413.8948282909
 20
-136.4065165316
 10
411.5953146754
 20
-140.0235839492
 10
409.1926914292
 20
-143.5543428419
 10
406.6938811721
 20
-146.988612782
 10
404.1060936495
 20
-150.3164916984
 10
401.4367888535
 20
-153.5283862911
 10
398.6936612182
 20
-156.6150363651
 10
395.8846211801
 20
-159.5675376421
 10
393.0177688368
 20
-162.3773813026
 10
390.1013676047
 20
-165.0364631083
 10
387.1438284143
 20
-167.5371229453
 10
384.1536774413
 20
-169.8721391174
 10
381.1395363504
 20
-172.0347884207
 10
378.1100961182
 20
-174.0188369206
 10
375.074090938
 20
-175.818555016
 10
372.0402744306
 20
-177.4287615916
 10
369.0173941248
 20
-178.8448083309
 10
366.014165775
 20
-180.0626188774
 10
363.0392489121
 20
-181.07867253
 10
360.1012197612
 20
-181.8900502963
 10
357.208549839
 20
-182.4944046618
 10
354.3695789531
 20
-182.8899995117
 10
351.5924954459
 20
-183.0756850341
 10
348.8853032672
 20
-183.0509349791
 10
346.2558088038
 20
-182.8158238443
 10
345.4242488486
 20
-182.6950101651
  0
LWPOLYLINE
  5
EB
330
1F
100
AcDbEntity
  8
0
  6
Continuous
 62
     1
370
    25
100
AcDbPolyline
 90
       50
 70
   128
 43
0.0
 10
455.7163004971
 20
-76.9353760592
 10
456.1322925261
 20
-77.4302376499
 10
457.5927730232
 20
-79.383877622
 10
458.9126042185
 20
-81.510433658
 10
460.0874844992
 20
-83.8029653699
 10
461.1135811364
 20
-86.2539970478
 10
461.9875434554
 20
-88.8555328706
 10
462.7065265442
 20
-91.5990873264
 10
463.2681807158
 20
-94.4757133486
 10
463.6706778507
 20
-97.476023612
 10
463.9127008599
 20
-100.5902365388
 10
463.9934647584
 20
-103.8081903702
 10
463.9127008599
 20
-107.1193922139
 10
463.6706778507
 20
-110.5130389594
 10
463.2681807158
 20
-113.978062523
 10
462.7065265442
 20
-117.5031606487
 10
461.9875434554
 20
-121.0768353091
 10
461.1135811364
 20
-124.6874265471
 10
460.0874844992
 20
-128.3231641851
 10
458.9126042185
 20
-131.9721837955
 10
457.5927730232
 20
-135.6225844937
 10
456.1322925261
 20
-139.2624593552
 10
454.5359305893
 20
-142.879936481
 10
452.8088923488
 20
-146.463217017
 10
450.9568096771
 20
-150.0006116564
 10
448.9857253786
 20
-153.4805801811
 10
446.9020694819
 20
-156.8917755673
 10
444.7126355322
 20
-160.2230728805
 10
442.4245674202
 20
-163.4635981714
 10
440.0453277724
 20
-166.6027893109
 10
437.5826768772
 20
-169.6304020711
 10
435.0446476605
 20
-172.5365610741
 10
432.4395193439
 20
-175.3117932501
 10
429.7757884687
 20
-177.947038481
 10
427.0621425539
 20
-180.4337043512
 10
424.3074344134
 20
-182.7636809747
 10
421.5206492284
 20
-184.9293721701
 10
418.7108768889
 20
-186.9237053447
 10
415.8872817001
 20
-188.7401794009
 10
413.0590740656
 20
-190.3728689156
 10
410.2354788768
 20
-191.8164484721
 10
407.4257065373
 20
-193.0662093882
 10
404.6389213524
 20
-194.1180718798
 10
401.8842132119
 20
-194.9686135761
 10
399.1705672971
 20
-195.615056589
 10
396.5068364218
 20
-196.0552895633
 10
393.9017081052
 20
-196.2878745184
 10
391.3636788885
 20
-196.3120616749
 10
388.9010279933
 20
-196.1277651166
 10
386.8859081407
 20
-195.8101649046
  0
LWPOLYLINE
  5
EC
330
1F
100
AcDbEntity
  8
0
  6
Continuous
 62
     1
370
    25
100
AcDbPolyline
 90
       54
 70
   128
 43
0.0
 10
452.9903371658
 20
-74.1946595973
 10
453.0442140091
 20
-74.2395091494
 10
454.7704567279
 20
-75.8280606154
 10
456.3660837289
 20
-77.601597633
 10
457.8258898765
 20
-79.5543401956
 10
459.1451125767
 20
-81.6799182192
 10
460.3194554851
 20
-83.9713913164
 10
461.3450779702
 20
-86.4212944229
 10
462.2186398942
 20
-89.0216317186
 10
462.9372910765
 20
-91.7639222539
 10
463.4986870987
 20
-94.6392220046
 10
463.9009945728
 20
-97.638153531
 10
464.1429069465
 20
-100.7509310737
 10
464.2236339665
 20
-103.9674023793
 10
464.1429069465
 20
-107.2770791181
 10
463.9009945728
 20
-110.6691627424
 10
463.4986870987
 20
-114.1325885913
 10
462.9372910765
 20
-117.6560623925
 10
462.2186398942
 20
-121.2280899214
 10
461.3450779702
 20
-124.8370203461
 10
460.3194554851
 20
-128.4710819684
 10
459.1451125767
 20
-132.1184225271
 10
457.8258898765
 20
-135.7671426594
 10
456.3660837289
 20
-139.405341524
 10
454.7704567279
 20
-143.0211502631
 10
453.0442140091
 20
-146.6027791484
 10
451.1929848111
 20
-150.1385434354
 10
449.222809304
 20
-153.6169105106
 10
447.1401122481
 20
-157.0265363914
 10
444.9516871886
 20
-160.3562961432
 10
442.6646727478
 20
-163.5953310258
 10
440.2865289181
 20
-166.7330743468
 10
437.8250133536
 20
-169.7592925245
 10
435.288153712
 20
-172.6641162644
 10
432.6842239464
 20
-175.4380664124
 10
430.021719281
 20
-178.07209882
 10
427.3093246007
 20
-180.5576225925
 10
424.5558854755
 20
-182.8865259416
 10
421.7703844524
 20
-185.0512142069
 10
418.9619058235
 20
-187.0446301947
 10
416.1396114248
 20
-188.8602681489
 10
413.3127067206
 20
-190.4922054979
 10
410.4904123219
 20
-191.9351192962
 10
407.681933693
 20
-193.1843037126
 10
404.8964326699
 20
-194.2356864726
 10
402.1429935446
 20
-195.0858362695
 10
399.4305988644
 20
-195.7319767355
 10
396.768094199
 20
-196.1720067812
 10
394.1641644334
 20
-196.4044899468
 10
391.6273047918
 20
-196.4286620037
 10
389.1657892273
 20
-196.244449203
 10
386.7876453975
 20
-195.8524523029
 10
384.5006309568
 20
-195.2539480884
 10
383.3340878495
 20
-194.8558960017
  0
ENDSEC
  0
SECTION
  2
OBJECTS
  0
DICTIONARY
  5
C
330
0
100
AcDbDictionary
281
     1
  3
ACAD_GROUP
350
D
  3
ACAD_LAYOUT
350
1A
  3
ACAD_MLINESTYLE
350
17
  3
ACAD_PLOTSETTINGS
350
19
  3
ACAD_PLOTSTYLENAME
350
E
  3
ACAD_SCALELIST
350
47
  0
DICTIONARY
  5
D
102
{ACAD_REACTORS
330
C
102
}
330
C
100
AcDbDictionary
281
     1
  0
DICTIONARY
  5
1A
102
{ACAD_REACTORS
330
C
102
}
330
C
100
AcDbDictionary
281
     1
  3
Layout1
350
1E
  3
Layout2
350
26
  3
Model
350
22
  0
DICTIONARY
  5
17
102
{ACAD_REACTORS
330
C
102
}
330
C
100
AcDbDictionary
281
     1
  3
Standard
350
18
  0
DICTIONARY
  5
19
102
{ACAD_REACTORS
330
C
102
}
330
C
100
AcDbDictionary
281
     1
  0
ACDBDICTIONARYWDFLT
  5
E
102
{ACAD_REACTORS
330
C
102
}
330
C
100
AcDbDictionary
281
     1
  3
Normal
350
F
100
AcDbDictionaryWithDefault
340
F
  0
DICTIONARY
  5
47
102
{ACAD_REACTORS
330
C
102
}
330
C
100
AcDbDictionary
281
     1
  3
A0
350
48
  3
A1
350
49
  3
A2
350
4A
  3
A3
350
4B
  3
A4
350
4C
  3
A5
350
4D
  3
A6
350
4E
  3
A7
350
4F
  3
A8
350
50
  3
A9
350
51
  3
B0
350
52
  3
B1
350
53
  3
B2
350
54
  3
B3
350
55
  3
B4
350
56
  3
B5
350
57
  3
B6
350
58
  3
B7
350
59
  3
B8
350
5A
  3
B9
350
5B
  3
C0
350
5C
  3
C1
350
5D
  3
C2
350
5E
  3
C3
350
5F
  3
C4
350
60
  3
C5
350
61
  3
C6
350
62
  3
C7
350
63
  3
C8
350
64
  3
C9
350
65
  3
D0
350
66
  3
D1
350
67
  3
D2
350
68
  0
LAYOUT
  5
1E
102
{ACAD_REACTORS
330
1A
102
}
330
1A
100
AcDbPlotSettings
  1

  2
none_device
  4

  6

 40
0.0
 41
0.0
 42
0.0
 43
0.0
 44
0.0
 45
0.0
 46
0.0
 47
0.0
 48
0.0
 49
0.0
140
0.0
141
0.0
142
1.0
143
1.0
 70
   688
 72
     1
 73
     0
 74
     5
  7

 75
    16
147
1.0
148
0.0
149
0.0
100
AcDbLayout
  1
Layout1
 70
     1
 71
     1
 10
0.0
 20
0.0
 11
420.0
 21
297.0
 12
0.0
 22
0.0
 32
0.0
 14
1.0000000000E+20
 24
1.0000000000E+20
 34
1.0000000000E+20
 15
-1.0000000000E+20
 25
-1.0000000000E+20
 35
-1.0000000000E+20
146
0.0
 13
0.0
 23
0.0
 33
0.0
 16
1.0
 26
0.0
 36
0.0
 17
0.0
 27
1.0
 37
0.0
 76
     0
330
1B
  0
LAYOUT
  5
26
102
{ACAD_REACTORS
330
1A
102
}
330
1A
100
AcDbPlotSettings
  1

  2
none_device
  4

  6

 40
0.0
 41
0.0
 42
0.0
 43
0.0
 44
0.0
 45
0.0
 46
0.0
 47
0.0
 48
0.0
 49
0.0
140
0.0
141
0.0
142
1.0
143
1.0
 70
   688
 72
     1
 73
     0
 74
     5
  7

 75
    16
147
1.0
148
0.0
149
0.0
100
AcDbLayout
  1
Layout2
 70
     1
 71
     2
 10
0.0
 20
0.0
 11
0.0
 21
0.0
 12
0.0
 22
0.0
 32
0.0
 14
0.0
 24
0.0
 34
0.0
 15
0.0
 25
0.0
 35
0.0
146
0.0
 13
0.0
 23
0.0
 33
0.0
 16
1.0
 26
0.0
 36
0.0
 17
0.0
 27
1.0
 37
0.0
 76
     0
330
23
  0
LAYOUT
  5
22
102
{ACAD_REACTORS
330
1A
102
}
330
1A
100
AcDbPlotSettings
  1

  2
none_device
  4
Letter_(8.50_x_11.00_Inches)
  6

 40
6.35
 41
6.35
 42
6.35000508
 43
6.35000508
 44
215.9
 45
279.4
 46
0.0
 47
0.0
 48
0.0
 49
0.0
140
0.0
141
0.0
142
1.0
143
1.0
 70
  1712
 72
     1
 73
     0
 74
     0
  7

 75
     0
147
1.0
148
0.0
149
0.0
100
AcDbLayout
  1
Model
 70
     1
 71
     0
 10
0.0
 20
0.0
 11
279.4
 21
215.9
 12
0.0
 22
0.0
 32
0.0
 14
0.0
 24
0.0
 34
0.0
 15
279.4
 25
215.9
 35
0.0
146
0.0
 13
0.0
 23
0.0
 33
0.0
 16
1.0
 26
0.0
 36
0.0
 17
0.0
 27
1.0
 37
0.0
 76
     0
330
1F
331
29
  0
MLINESTYLE
  5
18
102
{ACAD_REACTORS
330
17
102
}
330
17
100
AcDbMlineStyle
  2
Standard
 70
     0
  3

 62
   256
 51
90.0
 52
90.0
 71
     2
 49
0.5
 62
   256
  6
BYLAYER
 49
-0.5
 62
   256
  6
BYLAYER
  0
ACDBPLACEHOLDER
  5
F
102
{ACAD_REACTORS
330
E
102
}
330
E
  0
SCALE
  5
48
102
{ACAD_REACTORS
330
47
102
}
330
47
100
AcDbScale
 70
     0
300
1:1
140
1.0
141
1.0
290
     1
  0
SCALE
  5
49
102
{ACAD_REACTORS
330
47
102
}
330
47
100
AcDbScale
 70
     0
300
1:2
140
1.0
141
2.0
290
     0
  0
SCALE
  5
4A
102
{ACAD_REACTORS
330
47
102
}
330
47
100
AcDbScale
 70
     0
300
1:4
140
1.0
141
4.0
290
     0
  0
SCALE
  5
4B
102
{ACAD_REACTORS
330
47
102
}
330
47
100
AcDbScale
 70
     0
300
1:5
140
1.0
141
5.0
290
     0
  0
SCALE
  5
4C
102
{ACAD_REACTORS
330
47
102
}
330
47
100
AcDbScale
 70
     0
300
1:8
140
1.0
141
8.0
290
     0
  0
SCALE
  5
4D
102
{ACAD_REACTORS
330
47
102
}
330
47
100
AcDbScale
 70
     0
300
1:10
140
1.0
141
10.0
290
     0
  0
SCALE
  5
4E
102
{ACAD_REACTORS
330
47
102
}
330
47
100
AcDbScale
 70
     0
300
1:16
140
1.0
141
16.0
290
     0
  0
SCALE
  5
4F
102
{ACAD_REACTORS
330
47
102
}
330
47
100
AcDbScale
 70
     0
300
1:20
140
1.0
141
20.0
290
     0
  0
SCALE
  5
50
102
{ACAD_REACTORS
330
47
102
}
330
47
100
AcDbScale
 70
     0
300
1:30
140
1.0
141
30.0
290
     0
  0
SCALE
  5
51
102
{ACAD_REACTORS
330
47
102
}
330
47
100
AcDbScale
 70
     0
300
1:40
140
1.0
141
40.0
290
     0
  0
SCALE
  5
52
102
{ACAD_REACTORS
330
47
102
}
330
47
100
AcDbScale
 70
     0
300
1:50
140
1.0
141
50.0
290
     0
  0
SCALE
  5
53
102
{ACAD_REACTORS
330
47
102
}
330
47
100
AcDbScale
 70
     0
300
1:100
140
1.0
141
100.0
290
     0
  0
SCALE
  5
54
102
{ACAD_REACTORS
330
47
102
}
330
47
100
AcDbScale
 70
     0
300
2:1
140
2.0
141
1.0
290
     0
  0
SCALE
  5
55
102
{ACAD_REACTORS
330
47
102
}
330
47
100
AcDbScale
 70
     0
300
4:1
140
4.0
141
1.0
290
     0
  0
SCALE
  5
56
102
{ACAD_REACTORS
330
47
102
}
330
47
100
AcDbScale
 70
     0
300
8:1
140
8.0
141
1.0
290
     0
  0
SCALE
  5
57
102
{ACAD_REACTORS
330
47
102
}
330
47
100
AcDbScale
 70
     0
300
10:1
140
10.0
141
1.0
290
     0
  0
SCALE
  5
58
102
{ACAD_REACTORS
330
47
102
}
330
47
100
AcDbScale
 70
     0
300
100:1
140
100.0
141
1.0
290
     0
  0
SCALE
  5
59
102
{ACAD_REACTORS
330
47
102
}
330
47
100
AcDbScale
 70
     0
300
1/128" = 1'-0"
140
0.0078125
141
12.0
290
     0
  0
SCALE
  5
5A
102
{ACAD_REACTORS
330
47
102
}
330
47
100
AcDbScale
 70
     0
300
1/64" = 1'-0"
140
0.015625
141
12.0
290
     0
  0
SCALE
  5
5B
102
{ACAD_REACTORS
330
47
102
}
330
47
100
AcDbScale
 70
     0
300
1/32" = 1'-0"
140
0.03125
141
12.0
290
     0
  0
SCALE
  5
5C
102
{ACAD_REACTORS
330
47
102
}
330
47
100
AcDbScale
 70
     0
300
1/16" = 1'-0"
140
0.0625
141
12.0
290
     0
  0
SCALE
  5
5D
102
{ACAD_REACTORS
330
47
102
}
330
47
100
AcDbScale
 70
     0
300
3/32" = 1'-0"
140
0.09375
141
12.0
290
     0
  0
SCALE
  5
5E
102
{ACAD_REACTORS
330
47
102
}
330
47
100
AcDbScale
 70
     0
300
1/8" = 1'-0"
140
0.125
141
12.0
290
     0
  0
SCALE
  5
5F
102
{ACAD_REACTORS
330
47
102
}
330
47
100
AcDbScale
 70
     0
300
3/16" = 1'-0"
140
0.1875
141
12.0
290
     0
  0
SCALE
  5
60
102
{ACAD_REACTORS
330
47
102
}
330
47
100
AcDbScale
 70
     0
300
1/4" = 1'-0"
140
0.25
141
12.0
290
     0
  0
SCALE
  5
61
102
{ACAD_REACTORS
330
47
102
}
330
47
100
AcDbScale
 70
     0
300
3/8" = 1'-0"
140
0.375
141
12.0
290
     0
  0
SCALE
  5
62
102
{ACAD_REACTORS
330
47
102
}
330
47
100
AcDbScale
 70
     0
300
1/2" = 1'-0"
140
0.5
141
12.0
290
     0
  0
SCALE
  5
63
102
{ACAD_REACTORS
330
47
102
}
330
47
100
AcDbScale
 70
     0
300
3/4" = 1'-0"
140
0.75
141
12.0
290
     0
  0
SCALE
  5
64
102
{ACAD_REACTORS
330
47
102
}
330
47
100
AcDbScale
 70
     0
300
1" = 1'-0"
140
1.0
141
12.0
290
     0
  0
SCALE
  5
65
102
{ACAD_REACTORS
330
47
102
}
330
47
100
AcDbScale
 70
     0
300
1-1/2" = 1'-0"
140
1.5
141
12.0
290
     0
  0
SCALE
  5
66
102
{ACAD_REACTORS
330
47
102
}
330
47
100
AcDbScale
 70
     0
300
3" = 1'-0"
140
3.0
141
12.0
290
     0
  0
SCALE
  5
67
102
{ACAD_REACTORS
330
47
102
}
330
47
100
AcDbScale
 70
     0
300
6" = 1'-0"
140
6.0
141
12.0
290
     0
  0
SCALE
  5
68
102
{ACAD_REACTORS
330
47
102
}
330
47
100
AcDbScale
 70
     0
300
1'-0" = 1'-0"
140
12.0
141
12.0
290
     0
  0
ENDSEC
  0
EOF
